SLİPKNOT TURKEY FAN SİTESİ


Bağlı değilsiniz. Bağlanın ya da kayıt olun

RE: Vol.3 : The Subliminal Verses - Gitar Tabları

Aşağa gitmek  Mesaj [1 sayfadaki 1 sayfası]

1 RE: Vol.3 : The Subliminal Verses - Gitar Tabları Bir Salı Haz. 10, 2008 5:46 pm

Vermilion Pt.2

Verse:

|------------------------|
|------------------------|
|4-6---------------------|
|----5-4-4h5p4-7-7-7-7-7-|
|2-2-2-2-2-----5-5-5h4-4-|
|--------------0-0-0-0-0-|


Pre-Chorus:

|0-0-0-0-0-0-0-0-0-0-0-0-------|
|1-1-1-1-1-1-1-1-1-1-1-1-3-3-3-|
|0-0-0-0-0-0-0-0-0-0-0-0-2-2-2-|
|2-2-2-2-2-2-2-2-2-2-2-2-0-1-0-|
|3-3-3-3-3-3-3-3-3-3-3-3-0-0-0-|
|------------------------0-0-0-|


Chorus:

|--0-0---0-0---0-0---0-0-|
|-6-6---6-6---6-6---6-6--|
|------------------------|
|------------------------|
|------------------------|
|8-----7-----0-----3-----|


Bridge:

|-----------------------------------------------------|
|-----------------------------------------------------|
|-----------------------------------------------------|
|7-7-7-7-9-10-----------------------------------------|
|5-5-5-5-7-8--8-8-8-8-9-9-9-9-0-0-0-0-8-8-8-8-5-5-5-5-|
|0-0-0-0------8-8-8-8-9-9-9-9-0-0-0-0-8-8-8-8-5-5-5-5-| Repeat twice

Kullanıcı profilini gör http://slipknoturkey.yetkin-forum.com

Sayfa başına dön  Mesaj [1 sayfadaki 1 sayfası]

Bu forumun müsaadesi var:
Bu forumdaki mesajlara cevap veremezsiniz