SLİPKNOT TURKEY FAN SİTESİ


Bağlı değilsiniz. Bağlanın ya da kayıt olun

My Plague (Gitar Tab)

Aşağa gitmek  Mesaj [1 sayfadaki 1 sayfası]

1 My Plague (Gitar Tab) Bir Salı Haz. 10, 2008 5:45 pm

My Plague
----------------------------------------------|
----------------------------------------------|
----------------------------------------------|
----------------------------------------------|
----------------------------------------------|
-00--O-0-0--1-h2-2p1--------------------------|
=20

RIFF 2 (VERSE) (2X) (0:11)

----------------------------------------|
----------------------------------------|
----------------------------------------|
----------------------------------------|
-00-0-0-------------00-0-0--------------|
-00-0-0--1-h2-2p1---00-0-0--1-h2-2p1----|



(0:17)
----------------------------------------|
----------------------------------------|
----------------------------------------|
----------------------------------------|
-0-0-0-1-h2-2p1-----0-0-0-1-h2-2p1------|
-0-0-0-1-h2-2p1-----0-0-0-1-h2-2p1------|
=20

RIFF 3 (CHORUS)

GUITAR 1 (JAMES) (0:45)
------------------------------------------------|
------------------------------------------------|
------------------------------------------------|3x
------7----10-----12----------------------------|
-0-0--5-0---8--0--10-------22222222-555555------|
-0-0----0------0-----------22222222-555555------|



then (1:02) =20

------------------------------------------------|
------------------------------------------------|
------------------------------------------------|
------7----10------8----------------------------|
-0-0--5-0---8--0---8--------22222222-555555-----|
-0-0----0------0---8--------22222222-555555-----|




GUITAR 2 (MICK)


----------------------------------------------|
-------8--------8------8--------8-------8-----|
-------11b------11b----11b------11b-----11b---|
----------------------------------------------|
----------------------------------------------|
----------------------------------------------|
=20
RIFF 2 (VERSE)
RIFF 3 (CHORUS)

RIFF 4 (1:45)

----------------------------------------------|
----------------------------------------------|
----------------------------------------------|4X
-----------------3-----4-3--------------------|
---------4-3-------1-0------------------------|
---0-3-2-----4-3------------------------------|


RIFF 5 (1:56)

----------------------------------------------|
----------------------------------------------|
----------------------------------------------|11X
------------------2h3p2-----4-3---------------|
----------3h4-----------5-2-------------------|
--0-0-0-0-----3h4-----------------------------|


RIFF 3 (CHORUS)


RIFF 6 (OTHER CHORUS) (2:49)

------------------------------------------------|
------------------------------------------------|
------------------------------------------------|4X
------7----10------8----------------------------|
-0-0--5-0---8--0---8--------22222222-555555-----|
-0-0----0------0---8--------22222222-555555-----|


(3:10)
----------------------------------------|
----------------------------------------|
----------------------------------------|
----------------------------------------|
-0-0-0-0---1-1-h2-2p1-------------------|
-0-0-0-0---1-1-h2-2p1-------------------|


----------------------------------------|
----------------------------------------|
----------------------------------------|
----------------------------------------|
-----------------1-1-h2-2p1-------------|
-0^-0^-0^-0^-0^--1-1-h2-2p1-------------|

Kullanıcı profilini gör http://slipknoturkey.yetkin-forum.com

Sayfa başına dön  Mesaj [1 sayfadaki 1 sayfası]

Bu forumun müsaadesi var:
Bu forumdaki mesajlara cevap veremezsiniz