SLİPKNOT TURKEY FAN SİTESİ


Bağlı değilsiniz. Bağlanın ya da kayıt olun

Iowa (Gitar Tab)

Aşağa gitmek  Mesaj [1 sayfadaki 1 sayfası]

1 Iowa (Gitar Tab) Bir Salı Haz. 10, 2008 5:41 pm

Iowa

Guitar tuned to Drop B

Intro: Repeat many times
[------------------]
[------------------]
[------------------]
[-----7------------]
[------------------]
[----------5---7--]


Verse Just hold the last note
[------------------------------------------------------------------------------]
[------------------------------------------------------------------------------]
[-----------------------------------------------------------------------------]
[-----------------------------------------------------------------------------]
[----2----2h3p2---2h3p2---0----2---2h3p2---2h3p2-----------------]
[----2----2h3p2---2h3p2---0----2---2h3p2---2h3p2-----------------]

Verse 2 This is played just like the first verse
[-------------------------------------------------------------------------------
[-------------------------------------------------------------------------------
[-------------------------------------------------------------------------------
[---2---2h3p2---2h3p2---0---2---2h3p2---2h3p2-----------------------]
[-------------------------------------------------------------------------------
[-------------------------------------------------------------------------------

Kullanıcı profilini gör http://slipknoturkey.yetkin-forum.com

Sayfa başına dön  Mesaj [1 sayfadaki 1 sayfası]

Bu forumun müsaadesi var:
Bu forumdaki mesajlara cevap veremezsiniz